  0
SECTION
  2
HEADER
  9
$ACADVER
  1
AC1015
  9
$ACADMAINTVER
 70
     6
  9
$DWGCODEPAGE
  3
ANSI_1254
  9
$INSBASE
 10
0.0
 20
0.0
 30
0.0
  9
$EXTMIN
 10
0.0
 20
0.0
 30
0.0
  9
$EXTMAX
 10
279.4
 20
215.9
 30
0.0
  9
$LIMMIN
 10
0.0
 20
0.0
  9
$LIMMAX
 10
279.4
 20
215.9
  9
$ORTHOMODE
 70
     0
  9
$REGENMODE
 70
     1
  9
$FILLMODE
 70
     1
  9
$QTEXTMODE
 70
     0
  9
$MIRRTEXT
 70
     1
  9
$LTSCALE
 40
1.0
  9
$ATTMODE
 70
     1
  9
$TEXTSIZE
 40
3.5
  9
$TRACEWID
 40
1.0
  9
$TEXTSTYLE
  7
Standard
  9
$CLAYER
  8
0
  9
$CELTYPE
  6
ByLayer
  9
$CECOLOR
 62
   256
  9
$CELTSCALE
 40
1.0
  9
$DISPSILH
 70
     0
  9
$DIMSCALE
 40
1.0
  9
$DIMASZ
 40
3.5
  9
$DIMEXO
 40
1.0
  9
$DIMDLI
 40
3.75
  9
$DIMRND
 40
0.0
  9
$DIMDLE
 40
0.0
  9
$DIMEXE
 40
1.0
  9
$DIMTP
 40
0.0
  9
$DIMTM
 40
0.0
  9
$DIMTXT
 40
3.5
  9
$DIMCEN
 40
2.5
  9
$DIMTSZ
 40
0.0
  9
$DIMTOL
 70
     0
  9
$DIMLIM
 70
     0
  9
$DIMTIH
 70
     1
  9
$DIMTOH
 70
     1
  9
$DIMSE1
 70
     0
  9
$DIMSE2
 70
     0
  9
$DIMTAD
 70
     1
  9
$DIMZIN
 70
     0
  9
$DIMBLK
  1

  9
$DIMASO
 70
     1
  9
$DIMSHO
 70
     1
  9
$DIMPOST
  1

  9
$DIMAPOST
  1

  9
$DIMALT
 70
     0
  9
$DIMALTD
 70
     3
  9
$DIMALTF
 40
0.0393700787
  9
$DIMLFAC
 40
1.0
  9
$DIMTOFL
 70
     1
  9
$DIMTVP
 40
0.0
  9
$DIMTIX
 70
     0
  9
$DIMSOXD
 70
     0
  9
$DIMSAH
 70
     0
  9
$DIMBLK1
  1

  9
$DIMBLK2
  1

  9
$DIMSTYLE
  2
ISO-25
  9
$DIMCLRD
 70
     0
  9
$DIMCLRE
 70
     0
  9
$DIMCLRT
 70
     0
  9
$DIMTFAC
 40
1.0
  9
$DIMGAP
 40
1.524
  9
$DIMJUST
 70
     0
  9
$DIMSD1
 70
     0
  9
$DIMSD2
 70
     0
  9
$DIMTOLJ
 70
     0
  9
$DIMTZIN
 70
     0
  9
$DIMALTZ
 70
     0
  9
$DIMALTTZ
 70
     0
  9
$DIMUPT
 70
     0
  9
$DIMDEC
 70
     2
  9
$DIMTDEC
 70
     2
  9
$DIMALTU
 70
     2
  9
$DIMALTTD
 70
     3
  9
$DIMTXSTY
  7
Standard
  9
$DIMAUNIT
 70
     0
  9
$DIMADEC
 70
     2
  9
$DIMALTRND
 40
0.0
  9
$DIMAZIN
 70
     0
  9
$DIMDSEP
 70
    44
  9
$DIMATFIT
 70
     3
  9
$DIMFRAC
 70
     0
  9
$DIMLDRBLK
  1

  9
$DIMLUNIT
 70
     2
  9
$DIMLWD
 70
    -2
  9
$DIMLWE
 70
    -2
  9
$DIMTMOVE
 70
     0
  9
$LUNITS
 70
     2
  9
$LUPREC
 70
     2
  9
$SKETCHINC
 40
1.0
  9
$FILLETRAD
 40
10.0
  9
$AUNITS
 70
     0
  9
$AUPREC
 70
     2
  9
$MENU
  1
.
  9
$ELEVATION
 40
0.0
  9
$PELEVATION
 40
0.0
  9
$THICKNESS
 40
0.0
  9
$LIMCHECK
 70
     0
  9
$CHAMFERA
 40
0.0
  9
$CHAMFERB
 40
0.0
  9
$CHAMFERC
 40
0.0
  9
$CHAMFERD
 40
0.0
  9
$SKPOLY
 70
     0
  9
$TDCREATE
 40
2458985.668778276
  9
$TDUCREATE
 40
2458985.543778276
  9
$TDUPDATE
 40
2458985.668778541
  9
$TDUUPDATE
 40
2458985.543778541
  9
$TDINDWG
 40
0.0000000116
  9
$TDUSRTIMER
 40
0.0000000116
  9
$USRTIMER
 70
     1
  9
$ANGBASE
 50
0.0
  9
$ANGDIR
 70
     0
  9
$PDMODE
 70
     0
  9
$PDSIZE
 40
-1.0
  9
$PLINEWID
 40
0.0
  9
$SPLFRAME
 70
     0
  9
$SPLINETYPE
 70
     6
  9
$SPLINESEGS
 70
     8
  9
$HANDSEED
  5
D3
  9
$SURFTAB1
 70
     6
  9
$SURFTAB2
 70
     6
  9
$SURFTYPE
 70
     6
  9
$SURFU
 70
     6
  9
$SURFV
 70
     6
  9
$UCSBASE
  2

  9
$UCSNAME
  2

  9
$UCSORG
 10
0.0
 20
0.0
 30
0.0
  9
$UCSXDIR
 10
1.0
 20
0.0
 30
0.0
  9
$UCSYDIR
 10
0.0
 20
1.0
 30
0.0
  9
$UCSORTHOREF
  2

  9
$UCSORTHOVIEW
 70
     0
  9
$UCSORGTOP
 10
0.0
 20
0.0
 30
0.0
  9
$UCSORGBOTTOM
 10
0.0
 20
0.0
 30
0.0
  9
$UCSORGLEFT
 10
0.0
 20
0.0
 30
0.0
  9
$UCSORGRIGHT
 10
0.0
 20
0.0
 30
0.0
  9
$UCSORGFRONT
 10
0.0
 20
0.0
 30
0.0
  9
$UCSORGBACK
 10
0.0
 20
0.0
 30
0.0
  9
$PUCSBASE
  2

  9
$PUCSNAME
  2

  9
$PUCSORG
 10
0.0
 20
0.0
 30
0.0
  9
$PUCSXDIR
 10
1.0
 20
0.0
 30
0.0
  9
$PUCSYDIR
 10
0.0
 20
1.0
 30
0.0
  9
$PUCSORTHOREF
  2

  9
$PUCSORTHOVIEW
 70
     0
  9
$PUCSORGTOP
 10
0.0
 20
0.0
 30
0.0
  9
$PUCSORGBOTTOM
 10
0.0
 20
0.0
 30
0.0
  9
$PUCSORGLEFT
 10
0.0
 20
0.0
 30
0.0
  9
$PUCSORGRIGHT
 10
0.0
 20
0.0
 30
0.0
  9
$PUCSORGFRONT
 10
0.0
 20
0.0
 30
0.0
  9
$PUCSORGBACK
 10
0.0
 20
0.0
 30
0.0
  9
$USERI1
 70
     0
  9
$USERI2
 70
     0
  9
$USERI3
 70
     0
  9
$USERI4
 70
     0
  9
$USERI5
 70
     0
  9
$USERR1
 40
0.0
  9
$USERR2
 40
0.0
  9
$USERR3
 40
0.0
  9
$USERR4
 40
0.0
  9
$USERR5
 40
0.0
  9
$WORLDVIEW
 70
     1
  9
$SHADEDGE
 70
     3
  9
$SHADEDIF
 70
    70
  9
$TILEMODE
 70
     1
  9
$MAXACTVP
 70
    64
  9
$PINSBASE
 10
0.0
 20
0.0
 30
0.0
  9
$PLIMCHECK
 70
     0
  9
$PEXTMIN
 10
1.0000000000E+20
 20
1.0000000000E+20
 30
1.0000000000E+20
  9
$PEXTMAX
 10
-1.0000000000E+20
 20
-1.0000000000E+20
 30
-1.0000000000E+20
  9
$PLIMMIN
 10
0.0
 20
0.0
  9
$PLIMMAX
 10
420.0
 20
297.0
  9
$UNITMODE
 70
     0
  9
$VISRETAIN
 70
     1
  9
$PLINEGEN
 70
     0
  9
$PSLTSCALE
 70
     1
  9
$TREEDEPTH
 70
  3020
  9
$CMLSTYLE
  2
Standard
  9
$CMLJUST
 70
     0
  9
$CMLSCALE
 40
20.0
  9
$PROXYGRAPHICS
 70
     1
  9
$MEASUREMENT
 70
     1
  9
$CELWEIGHT
370
    -1
  9
$ENDCAPS
280
     0
  9
$JOINSTYLE
280
     0
  9
$LWDISPLAY
290
     1
  9
$INSUNITS
 70
     4
  9
$HYPERLINKBASE
  1

  9
$STYLESHEET
  1

  9
$XEDIT
290
     1
  9
$CEPSNTYPE
380
     0
  9
$PSTYLEMODE
290
     1
  9
$FINGERPRINTGUID
  2
{c895a274-50b1-4d59-ab3f-10e854b0282b}
  9
$VERSIONGUID
  2
{FAEB1C32-E019-11D5-929B-00C0DF256EC4}
  9
$EXTNAMES
290
     1
  9
$PSVPSCALE
 40
0.0
  9
$OLESTARTUP
290
     0
  0
ENDSEC
  0
SECTION
  2
CLASSES
  0
CLASS
  1
ACDBDICTIONARYWDFLT
  2
AcDbDictionaryWithDefault
  3
ObjectDBX Classes
 90
        0
280
     0
281
     0
  0
CLASS
  1
VISUALSTYLE
  2
AcDbVisualStyle
  3
ObjectDBX Classes
 90
     4095
280
     0
281
     0
  0
CLASS
  1
MATERIAL
  2
AcDbMaterial
  3
ObjectDBX Classes
 90
     1153
280
     0
281
     0
  0
CLASS
  1
SCALE
  2
AcDbScale
  3
ObjectDBX Classes
 90
     1153
280
     0
281
     0
  0
CLASS
  1
TABLESTYLE
  2
AcDbTableStyle
  3
ObjectDBX Classes
 90
     4095
280
     0
281
     0
  0
CLASS
  1
MLEADERSTYLE
  2
AcDbMLeaderStyle
  3
ACDB_MLEADERSTYLE_CLASS
 90
     4095
280
     0
281
     0
  0
CLASS
  1
SUN
  2
AcDbSun
  3
SCENEOE
 90
     1153
280
     0
281
     0
  0
CLASS
  1
ACDBPLACEHOLDER
  2
AcDbPlaceHolder
  3
ObjectDBX Classes
 90
        0
280
     0
281
     0
  0
CLASS
  1
LAYOUT
  2
AcDbLayout
  3
ObjectDBX Classes
 90
        0
280
     0
281
     0
  0
ENDSEC
  0
SECTION
  2
TABLES
  0
TABLE
  2
VPORT
  5
8
330
0
100
AcDbSymbolTable
 70
     1
  0
VPORT
  5
29
330
8
100
AcDbSymbolTableRecord
100
AcDbViewportTableRecord
  2
*Active
 70
     0
 10
0.0
 20
0.0
 11
1.0
 21
1.0
 12
139.7
 22
107.95
 13
0.0
 23
0.0
 14
10.0
 24
10.0
 15
10.0
 25
10.0
 16
0.0
 26
0.0
 36
1.0
 17
0.0
 27
0.0
 37
0.0
 40
215.9
 41
1.2941176471
 42
50.0
 43
0.0
 44
0.0
 50
0.0
 51
0.0
 71
     0
 72
  2000
 73
     1
 74
     3
 75
     0
 76
     0
 77
     0
 78
     0
281
     0
 65
     1
110
0.0
120
0.0
130
0.0
111
1.0
121
0.0
131
0.0
112
0.0
122
1.0
132
0.0
 79
     0
146
0.0
  0
ENDTAB
  0
TABLE
  2
LTYPE
  5
5
330
0
100
AcDbSymbolTable
 70
     6
  0
LTYPE
  5
14
330
5
100
AcDbSymbolTableRecord
100
AcDbLinetypeTableRecord
  2
ByBlock
 70
     0
  3

 72
    65
 73
     0
 40
0.0
  0
LTYPE
  5
15
330
5
100
AcDbSymbolTableRecord
100
AcDbLinetypeTableRecord
  2
ByLayer
 70
     0
  3

 72
    65
 73
     0
 40
0.0
  0
LTYPE
  5
16
330
5
100
AcDbSymbolTableRecord
100
AcDbLinetypeTableRecord
  2
Continuous
 70
     0
  3
Solid line
 72
    65
 73
     0
 40
0.0
  0
LTYPE
  5
6E
330
5
100
AcDbSymbolTableRecord
100
AcDbLinetypeTableRecord
  2
HIDDEN
 70
     0
  3
Hidden __ __ __ __ __ __ __ __ __ __ __ __ __ __
 72
    65
 73
     2
 40
1.905
 49
1.27
 74
     0
 49
-0.635
 74
     0
  0
LTYPE
  5
6F
330
5
100
AcDbSymbolTableRecord
100
AcDbLinetypeTableRecord
  2
PHANTOM
 70
     0
  3
Phantom ______  __  __  ______  __  __  ______
 72
    65
 73
     6
 40
12.7
 49
6.35
 74
     0
 49
-1.27
 74
     0
 49
1.27
 74
     0
 49
-1.27
 74
     0
 49
1.27
 74
     0
 49
-1.27
 74
     0
  0
LTYPE
  5
70
330
5
100
AcDbSymbolTableRecord
100
AcDbLinetypeTableRecord
  2
CENTER
 70
     0
  3
Center ____ _ ____ _ ____ _ ____ _ ____ _ ____
 72
    65
 73
     4
 40
10.16
 49
6.35
 74
     0
 49
-1.27
 74
     0
 49
1.27
 74
     0
 49
-1.27
 74
     0
  0
LTYPE
  5
71
330
5
100
AcDbSymbolTableRecord
100
AcDbLinetypeTableRecord
  2
CENTERX2
 70
     0
  3
Center (2x) ________  __  ________  __  _____
 72
    65
 73
     4
 40
20.32
 49
12.7
 74
     0
 49
-2.54
 74
     0
 49
2.54
 74
     0
 49
-2.54
 74
     0
  0
LTYPE
  5
72
330
5
100
AcDbSymbolTableRecord
100
AcDbLinetypeTableRecord
  2
DOT2
 70
     0
  3
Dot (.5x) ........................................
 72
    65
 73
     2
 40
0.635
 49
0.0
 74
     0
 49
-0.635
 74
     0
  0
ENDTAB
  0
TABLE
  2
LAYER
  5
2
330
0
100
AcDbSymbolTable
 70
    17
  0
LAYER
  5
10
330
2
100
AcDbSymbolTableRecord
100
AcDbLayerTableRecord
  2
0
 70
     0
 62
     7
  6
Continuous
370
    -3
390
F
  0
LAYER
  5
73
330
2
100
AcDbSymbolTableRecord
100
AcDbLayerTableRecord
  2
FORMAT
 70
     0
 62
     7
  6
Continuous
370
    -3
390
F
  0
LAYER
  5
74
330
2
100
AcDbSymbolTableRecord
100
AcDbLayerTableRecord
  2
YARDIMCI_GEOMETRI
 70
     0
 62
    -6
  6
Continuous
290
     0
370
    -3
390
F
  0
LAYER
  5
75
330
2
100
AcDbSymbolTableRecord
100
AcDbLayerTableRecord
  2
SAYFA_CERCEVESI
 70
     0
 62
     7
  6
Continuous
370
    25
390
F
  0
LAYER
  5
76
330
2
100
AcDbSymbolTableRecord
100
AcDbLayerTableRecord
  2
ANTET
 70
     0
 62
     7
  6
Continuous
370
    -3
390
F
  0
LAYER
  5
77
330
2
100
AcDbSymbolTableRecord
100
AcDbLayerTableRecord
  2
OLCU
 70
     0
 62
   150
  6
Continuous
370
    -3
390
F
  0
LAYER
  5
78
330
2
100
AcDbSymbolTableRecord
100
AcDbLayerTableRecord
  2
METIN
 70
     0
 62
    96
  6
Continuous
370
    -3
390
F
  0
LAYER
  5
79
330
2
100
AcDbSymbolTableRecord
100
AcDbLayerTableRecord
  2
BALON
 70
     0
 62
     5
  6
Continuous
370
    -3
390
F
  0
LAYER
  5
7A
330
2
100
AcDbSymbolTableRecord
100
AcDbLayerTableRecord
  2
VURGU
 70
     0
 62
     7
  6
Continuous
370
    -3
390
F
  0
LAYER
  5
7B
330
2
100
AcDbSymbolTableRecord
100
AcDbLayerTableRecord
  2
SILIK
 70
     0
 62
     7
  6
Continuous
370
    -3
390
F
  0
LAYER
  5
7C
330
2
100
AcDbSymbolTableRecord
100
AcDbLayerTableRecord
  2
MODEL
 70
     0
 62
     7
  6
Continuous
370
    -3
390
F
  0
LAYER
  5
7D
330
2
100
AcDbSymbolTableRecord
100
AcDbLayerTableRecord
  2
DETAYLANDıRMA
 70
     0
 62
   190
  6
Continuous
370
    -3
390
F
  0
LAYER
  5
7E
330
2
100
AcDbSymbolTableRecord
100
AcDbLayerTableRecord
  2
TOLERANS
 70
     0
 62
   230
  6
Continuous
370
    -3
390
F
  0
LAYER
  5
7F
330
2
100
AcDbSymbolTableRecord
100
AcDbLayerTableRecord
  2
MERKEZ_CIZGILERI
 70
     0
 62
    30
  6
Continuous
370
    -3
390
F
  0
LAYER
  5
80
330
2
100
AcDbSymbolTableRecord
100
AcDbLayerTableRecord
  2
KESIT-DETAY_CIZGILERI
 70
     0
 62
     7
  6
Continuous
370
    -3
390
F
  0
LAYER
  5
81
330
2
100
AcDbSymbolTableRecord
100
AcDbLayerTableRecord
  2
\U+041E\U+0421\U+0415\U+0412\U+042B\U+0415
 70
     0
 62
     7
  6
Continuous
370
    -3
390
F
  0
LAYER
  5
82
330
2
100
AcDbSymbolTableRecord
100
AcDbLayerTableRecord
  2
\U+0412\U+041E\U+0414\U+042F\U+041D\U+042B\U+0415_\U+0417\U+041D\U+0410\U+041A\U+0418
 70
     0
 62
    11
  6
Continuous
370
    -3
390
F
  0
ENDTAB
  0
TABLE
  2
STYLE
  5
3
330
0
100
AcDbSymbolTable
 70
     1
  0
STYLE
  5
11
330
3
100
AcDbSymbolTableRecord
100
AcDbTextStyleTableRecord
  2
Standard
 70
     0
 40
0.0
 41
1.0
 50
0.0
 71
     0
 42
3.5
  3
txt
  4

  0
ENDTAB
  0
TABLE
  2
VIEW
  5
6
330
0
100
AcDbSymbolTable
 70
     0
  0
ENDTAB
  0
TABLE
  2
UCS
  5
7
330
0
100
AcDbSymbolTable
 70
     0
  0
ENDTAB
  0
TABLE
  2
APPID
  5
9
330
0
100
AcDbSymbolTable
 70
     1
  0
APPID
  5
12
330
9
100
AcDbSymbolTableRecord
100
AcDbRegAppTableRecord
  2
ACAD
 70
     0
  0
ENDTAB
  0
TABLE
  2
DIMSTYLE
  5
A
330
0
100
AcDbSymbolTable
 70
     1
100
AcDbDimStyleTable
  0
DIMSTYLE
105
27
330
A
100
AcDbSymbolTableRecord
100
AcDbDimStyleTableRecord
  2
ISO-25
 70
     0
 41
2.5
 42
0.625
 43
3.75
 44
1.25
 73
     0
 74
     0
 77
     1
 78
     8
140
2.5
141
2.5
143
0.0393700787
147
0.625
171
     3
172
     1
178
     0
271
     2
272
     2
274
     3
278
    44
283
     0
284
     8
340
11
  0
ENDTAB
  0
TABLE
  2
BLOCK_RECORD
  5
1
330
0
100
AcDbSymbolTable
 70
     3
  0
BLOCK_RECORD
  5
1F
330
1
100
AcDbSymbolTableRecord
100
AcDbBlockTableRecord
  2
*Model_Space
340
22
  0
BLOCK_RECORD
  5
1B
330
1
100
AcDbSymbolTableRecord
100
AcDbBlockTableRecord
  2
*Paper_Space
340
1E
  0
BLOCK_RECORD
  5
23
330
1
100
AcDbSymbolTableRecord
100
AcDbBlockTableRecord
  2
*Paper_Space0
340
26
  0
BLOCK_RECORD
  5
94
330
1
100
AcDbSymbolTableRecord
100
AcDbBlockTableRecord
  2
SW_CENTERMARKSYMBOL_0
340
0
102
{BLKREFS
331
9F
102
}
  0
BLOCK_RECORD
  5
A5
330
1
100
AcDbSymbolTableRecord
100
AcDbBlockTableRecord
  2
SW_CENTERMARKSYMBOL_1
340
0
102
{BLKREFS
331
B0
102
}
  0
ENDTAB
  0
ENDSEC
  0
SECTION
  2
BLOCKS
  0
BLOCK
  5
20
330
1F
100
AcDbEntity
  8
0
100
AcDbBlockBegin
  2
*Model_Space
 70
     0
 10
0.0
 20
0.0
 30
0.0
  3
*Model_Space
  1

  0
ENDBLK
  5
21
330
1F
100
AcDbEntity
  8
0
100
AcDbBlockEnd
  0
BLOCK
  5
1C
330
1B
100
AcDbEntity
 67
     1
  8
0
100
AcDbBlockBegin
  2
*Paper_Space
 70
     0
 10
0.0
 20
0.0
 30
0.0
  3
*Paper_Space
  1

  0
ENDBLK
  5
1D
330
1B
100
AcDbEntity
 67
     1
  8
0
100
AcDbBlockEnd
  0
BLOCK
  5
24
330
23
100
AcDbEntity
  8
0
100
AcDbBlockBegin
  2
*Paper_Space0
 70
     0
 10
0.0
 20
0.0
 30
0.0
  3
*Paper_Space0
  1

  0
ENDBLK
  5
25
330
23
100
AcDbEntity
  8
0
100
AcDbBlockEnd
  0
BLOCK
  5
95
330
94
100
AcDbEntity
  8
0
100
AcDbBlockBegin
  2
SW_CENTERMARKSYMBOL_0
 70
     0
 10
0.0
 20
0.0
 30
0.0
  3
SW_CENTERMARKSYMBOL_0
  1

  0
LINE
  5
97
330
94
100
AcDbEntity
  8
FORMAT
 62
     0
100
AcDbLine
 10
0.0
 20
0.0
 30
0.0
 11
0.0
 21
2.5
 31
0.0
  0
LINE
  5
98
330
94
100
AcDbEntity
  8
FORMAT
 62
     0
100
AcDbLine
 10
0.0
 20
0.0
 30
0.0
 11
-2.5
 21
0.0
 31
0.0
  0
LINE
  5
99
330
94
100
AcDbEntity
  8
FORMAT
 62
     0
100
AcDbLine
 10
0.0
 20
0.0
 30
0.0
 11
0.0
 21
-2.5
 31
0.0
  0
LINE
  5
9A
330
94
100
AcDbEntity
  8
FORMAT
 62
     0
100
AcDbLine
 10
0.0
 20
0.0
 30
0.0
 11
2.5
 21
0.0
 31
0.0
  0
LINE
  5
9B
330
94
100
AcDbEntity
  8
FORMAT
 62
     0
100
AcDbLine
 10
0.0
 20
5.0
 30
0.0
 11
0.0
 21
40.0
 31
0.0
  0
LINE
  5
9C
330
94
100
AcDbEntity
  8
FORMAT
 62
     0
100
AcDbLine
 10
-5.0
 20
0.0
 30
0.0
 11
-40.0
 21
0.0
 31
0.0
  0
LINE
  5
9D
330
94
100
AcDbEntity
  8
FORMAT
 62
     0
100
AcDbLine
 10
0.0
 20
-5.0
 30
0.0
 11
0.0
 21
-40.0
 31
0.0
  0
LINE
  5
9E
330
94
100
AcDbEntity
  8
FORMAT
 62
     0
100
AcDbLine
 10
5.0
 20
0.0
 30
0.0
 11
40.0
 21
0.0
 31
0.0
  0
ENDBLK
  5
96
330
94
100
AcDbEntity
  8
0
100
AcDbBlockEnd
  0
BLOCK
  5
A6
330
A5
100
AcDbEntity
  8
0
100
AcDbBlockBegin
  2
SW_CENTERMARKSYMBOL_1
 70
     0
 10
0.0
 20
0.0
 30
0.0
  3
SW_CENTERMARKSYMBOL_1
  1

  0
LINE
  5
A8
330
A5
100
AcDbEntity
  8
FORMAT
 62
     0
100
AcDbLine
 10
0.0
 20
0.0
 30
0.0
 11
0.0
 21
2.5
 31
0.0
  0
LINE
  5
A9
330
A5
100
AcDbEntity
  8
FORMAT
 62
     0
100
AcDbLine
 10
0.0
 20
0.0
 30
0.0
 11
-2.5
 21
0.0
 31
0.0
  0
LINE
  5
AA
330
A5
100
AcDbEntity
  8
FORMAT
 62
     0
100
AcDbLine
 10
0.0
 20
0.0
 30
0.0
 11
0.0
 21
-2.5
 31
0.0
  0
LINE
  5
AB
330
A5
100
AcDbEntity
  8
FORMAT
 62
     0
100
AcDbLine
 10
0.0
 20
0.0
 30
0.0
 11
2.5
 21
0.0
 31
0.0
  0
LINE
  5
AC
330
A5
100
AcDbEntity
  8
FORMAT
 62
     0
100
AcDbLine
 10
0.0
 20
5.0
 30
0.0
 11
0.0
 21
40.0
 31
0.0
  0
LINE
  5
AD
330
A5
100
AcDbEntity
  8
FORMAT
 62
     0
100
AcDbLine
 10
-5.0
 20
0.0
 30
0.0
 11
-40.0
 21
0.0
 31
0.0
  0
LINE
  5
AE
330
A5
100
AcDbEntity
  8
FORMAT
 62
     0
100
AcDbLine
 10
0.0
 20
-5.0
 30
0.0
 11
0.0
 21
-40.0
 31
0.0
  0
LINE
  5
AF
330
A5
100
AcDbEntity
  8
FORMAT
 62
     0
100
AcDbLine
 10
5.0
 20
0.0
 30
0.0
 11
40.0
 21
0.0
 31
0.0
  0
ENDBLK
  5
A7
330
A5
100
AcDbEntity
  8
0
100
AcDbBlockEnd
  0
ENDSEC
  0
SECTION
  2
ENTITIES
  0
LINE
  5
83
330
1F
100
AcDbEntity
  8
0
  6
Continuous
 62
     7
370
    25
100
AcDbLine
 10
104.1736385055
 20
218.6267529364
 30
0.0
 11
104.1736385055
 21
87.8119994636
 31
0.0
  0
LINE
  5
84
330
1F
100
AcDbEntity
  8
0
  6
Continuous
 62
     7
370
    25
100
AcDbLine
 10
179.1736414857
 20
87.8119994636
 30
0.0
 11
179.1736414857
 21
218.6267529364
 31
0.0
  0
LINE
  5
85
330
1F
100
AcDbEntity
  8
0
  6
Continuous
 62
     7
370
    25
100
AcDbLine
 10
179.1736414857
 20
218.6267529364
 30
0.0
 11
179.1736414857
 21
272.8120092983
 31
0.0
  0
LINE
  5
86
330
1F
100
AcDbEntity
  8
0
  6
Continuous
 62
     7
370
    25
100
AcDbLine
 10
179.1736414857
 20
-11.188
 30
0.0
 11
179.1736414857
 21
87.8119994636
 31
0.0
  0
LINE
  5
87
330
1F
100
AcDbEntity
  8
0
  6
Continuous
 62
     7
370
    25
100
AcDbLine
 10
104.1736385055
 20
87.8119994636
 30
0.0
 11
104.1736385055
 21
-11.188
 31
0.0
  0
LINE
  5
88
330
1F
100
AcDbEntity
  8
0
  6
Continuous
 62
     7
370
    25
100
AcDbLine
 10
104.1736385055
 20
272.8120092983
 30
0.0
 11
104.1736385055
 21
218.6267529364
 31
0.0
  0
LWPOLYLINE
  5
89
330
1F
100
AcDbEntity
  8
0
  6
Continuous
 62
     7
370
    25
100
AcDbPolyline
 90
       74
 70
   128
 43
0.0
 10
141.6736399956
 20
241.9612710114
 10
138.836801631
 20
241.8749038811
 10
136.0209664531
 20
241.6163985367
 10
133.2469811864
 20
241.1876921291
 10
130.5353842877
 20
240.5919437046
 10
127.9062513463
 20
239.8335938091
 10
125.3790470041
 20
238.918215477
 10
122.9724815316
 20
237.8526036377
 10
120.7043739237
 20
236.6446559067
 10
118.5915159263
 20
235.3033129807
 10
116.6495481707
 20
233.8385139341
 10
114.8928502776
 20
232.2610770102
 10
113.3344290979
 20
230.5826996202
 10
111.9858218558
 20
228.8158093328
 10
110.8570123292
 20
226.9734744663
 10
109.956358207
 20
225.0693444843
 10
109.2905258961
 20
223.1175158854
 10
108.8644495435
 20
221.1324427958
 10
108.6812807448
 20
219.1288177605
 10
108.7423755057
 20
217.121482336
 10
109.0472793408
 20
215.125278079
 10
109.5937384494
 20
213.1550167437
 10
110.3777071662
 20
211.2252418633
 10
111.3933796264
 20
209.3502883549
 10
112.6332381941
 20
207.5439993973
 10
114.0881000288
 20
205.8197711344
 10
115.7471953161
 20
204.1903589602
 10
117.5982399113
 20
202.667817914
 10
119.6275321968
 20
201.2634430761
 10
121.820046214
 20
199.9876205559
 10
124.1595490105
 20
198.8497976894
 10
126.6287189178
 20
197.8583787317
 10
129.2092768676
 20
197.0207397575
 10
131.8821167774
 20
196.3430647488
 10
134.6274499051
 20
195.8303604956
 10
137.4249501355
 20
195.4864416952
 10
140.2539062515
 20
195.3138415451
 10
143.0933737397
 20
195.3138415451
 10
145.9223298557
 20
195.4864416952
 10
148.7198300861
 20
195.8303604956
 10
151.4651632138
 20
196.3430647488
 10
154.1380031235
 20
197.0207397575
 10
156.7185610734
 20
197.8583787317
 10
159.1877309807
 20
198.8497976894
 10
161.5272337772
 20
199.9876205559
 10
163.7197477944
 20
201.2634430761
 10
165.7490400799
 20
202.667817914
 10
167.6000846751
 20
204.1903589602
 10
169.2591799624
 20
205.8197711344
 10
170.7140417971
 20
207.5439993973
 10
171.9539003648
 20
209.3502883549
 10
172.969572825
 20
211.2252418633
 10
173.7535415418
 20
213.1550167437
 10
174.3000006504
 20
215.125278079
 10
174.6049044855
 20
217.121482336
 10
174.6659992464
 20
219.1288177605
 10
174.4828304477
 20
221.1324427958
 10
174.0567540951
 20
223.1175158854
 10
173.3909217842
 20
225.0693444843
 10
172.490267662
 20
226.9734744663
 10
171.3614581354
 20
228.8158093328
 10
170.0128508933
 20
230.5826996202
 10
168.4544297136
 20
232.2610770102
 10
166.6977318205
 20
233.8385139341
 10
164.7557640649
 20
235.3033129807
 10
162.6429060675
 20
236.6446559067
 10
160.3747984596
 20
237.8526036377
 10
157.9682329871
 20
238.918215477
 10
155.4410286449
 20
239.8335938091
 10
152.8118957035
 20
240.5919437046
 10
150.1002988048
 20
241.1876921291
 10
147.3263135381
 20
241.6163985367
 10
144.5104783602
 20
241.8749038811
 10
141.6736399956
 20
241.9612710114
  0
LWPOLYLINE
  5
8A
330
1F
100
AcDbEntity
  8
0
  6
Continuous
 62
     7
370
    25
100
AcDbPolyline
 90
       79
 70
   128
 43
0.0
 10
141.6736399956
 20
245.1432649727
 10
138.656143678
 20
245.0572852726
 10
135.6582167759
 20
244.7998826141
 10
132.6993029766
 20
244.3727259274
 10
129.7985898532
 20
243.7786166306
 10
126.9748924501
 20
243.0213992233
 10
124.2465215005
 20
242.1059612865
 10
121.6311721332
 20
241.0382334824
 10
119.1458055951
 20
239.8251895542
 10
116.8065412171
 20
238.4746377106
 10
114.6285483815
 20
236.9953845377
 10
112.625953389
 20
235.3969965811
 10
110.8117444642
 20
233.6898450489
 10
109.1976879366
 20
231.8850015039
 10
107.7942481466
 20
229.9941782589
 10
106.6105297036
 20
228.0296389694
 10
105.6542104311
 20
226.0041092272
 10
104.9314892121
 20
223.9307318563
 10
104.4470561869
 20
221.8229626055
 10
104.2040517755
 20
219.6944658394
 10
104.2040517755
 20
217.5590400333
 10
104.4470561869
 20
215.4305432673
 10
104.9314892121
 20
213.3227740164
 10
105.6542104311
 20
211.2493966455
 10
106.6105297036
 20
209.2238669033
 10
107.7942481466
 20
207.2593276138
 10
109.1976879366
 20
205.3685043688
 10
110.8117444642
 20
203.5636608238
 10
112.625953389
 20
201.8565092916
 10
114.6285483815
 20
200.258121335
 10
116.8065412171
 20
198.7788681622
 10
119.1458055951
 20
197.4283312197
 10
121.6311721332
 20
196.2152723904
 10
124.2465215005
 20
195.1475594873
 10
126.9748924501
 20
194.2321215506
 10
129.7985898532
 20
193.4748892422
 10
132.6993029766
 20
192.8807650442
 10
135.6582167759
 20
192.4536381598
 10
138.656143678
 20
192.1962355013
 10
141.6736399956
 20
192.1102558012
 10
144.6911363132
 20
192.1962355013
 10
147.6890632152
 20
192.4536381598
 10
150.6479770146
 20
192.8807650442
 10
153.548690138
 20
193.4748892422
 10
156.3723875411
 20
194.2321215506
 10
159.1007584907
 20
195.1475594873
 10
161.716107858
 20
196.2152723904
 10
164.2014743961
 20
197.4283312197
 10
166.5407387741
 20
198.7788681622
 10
168.7187316097
 20
200.258121335
 10
170.7213266022
 20
201.8565092916
 10
172.535535527
 20
203.5636608238
 10
174.1495920546
 20
205.3685043688
 10
175.5530318446
 20
207.2593276138
 10
176.7367502876
 20
209.2238669033
 10
177.6930695601
 20
211.2493966455
 10
178.4157907791
 20
213.3227740164
 10
178.9002238043
 20
215.4305432673
 10
179.1432282157
 20
217.5590400333
 10
179.1432282157
 20
219.6944658394
 10
178.9002238043
 20
221.8229626055
 10
178.4157907791
 20
223.9307318563
 10
177.6930695601
 20
226.0041092272
 10
176.7367502876
 20
228.0296389694
 10
175.5530318446
 20
229.9941782589
 10
174.1495920546
 20
231.8850015039
 10
172.535535527
 20
233.6898450489
 10
170.7213266022
 20
235.3969965811
 10
168.7187316097
 20
236.9953845377
 10
166.5407387741
 20
238.4746377106
 10
164.2014743961
 20
239.8251895542
 10
161.716107858
 20
241.0382334824
 10
159.1007584907
 20
242.1059612865
 10
156.3723875411
 20
243.0213992233
 10
153.548690138
 20
243.7786166306
 10
150.6479770146
 20
244.3727259274
 10
147.6890632152
 20
244.7998826141
 10
144.6911363132
 20
245.0572852726
 10
141.6736399956
 20
245.1432649727
  0
ELLIPSE
  5
8B
330
1F
100
AcDbEntity
  8
0
  6
Continuous
 62
     7
370
    25
100
AcDbEllipse
 10
141.6736399956
 20
87.812
 30
0.0
 11
37.5
 21
0.0
 31
0.0
210
0.0
220
0.0
230
1.0
 40
0.4142135624
 41
3.141592653589828
 42
6.283185307179586
  0
LINE
  5
8C
330
1F
100
AcDbEntity
  8
0
  6
Continuous
 62
     7
370
    25
100
AcDbLine
 10
104.1736385055
 20
-11.188
 30
0.0
 11
179.1736414857
 21
-11.188
 31
0.0
  0
LINE
  5
8D
330
1F
100
AcDbEntity
  8
0
  6
Continuous
 62
     7
370
    25
100
AcDbLine
 10
104.1736385055
 20
272.8120092983
 30
0.0
 11
179.1736414857
 21
272.8120092983
 31
0.0
  0
LINE
  5
8E
330
1F
100
AcDbEntity
  8
0
  6
Continuous
 62
     7
370
    25
100
AcDbLine
 10
179.1736414857
 20
367.6607137568
 30
0.0
 11
179.1736414857
 21
498.4754746802
 31
0.0
  0
LINE
  5
8F
330
1F
100
AcDbEntity
  8
0
  6
Continuous
 62
     7
370
    25
100
AcDbLine
 10
104.1736385055
 20
498.4754746802
 30
0.0
 11
104.1736385055
 21
367.6607137568
 31
0.0
  0
CIRCLE
  5
90
330
1F
100
AcDbEntity
  8
0
  6
Continuous
 62
     7
370
    25
100
AcDbCircle
 10
141.6736399956
 20
498.4754746802
 30
0.0
 40
33.0
  0
CIRCLE
  5
91
330
1F
100
AcDbEntity
  8
0
  6
Continuous
 62
     7
370
    25
100
AcDbCircle
 10
141.6736399956
 20
498.4754746802
 30
0.0
 40
37.5
  0
LWPOLYLINE
  5
92
330
1F
100
AcDbEntity
  8
0
  6
Continuous
 62
     7
370
    25
100
AcDbPolyline
 90
       79
 70
   128
 43
0.0
 10
141.6736399956
 20
394.1772257931
 10
138.656143678
 20
394.0912386425
 10
135.6582167759
 20
393.8338434346
 10
132.6993029766
 20
393.406701649
 10
129.7985898532
 20
392.8125923522
 10
126.9748924501
 20
392.0553600438
 10
124.2465215005
 20
391.139922107
 10
121.6311721332
 20
390.072209204
 10
119.1458055951
 20
388.8591503747
 10
116.8065412171
 20
387.5086059816
 10
114.6285483815
 20
386.0293453581
 10
112.625953389
 20
384.4309574015
 10
110.8117444642
 20
382.7238133199
 10
109.1976879366
 20
380.918969775
 10
107.7942481466
 20
379.0281465299
 10
106.6105297036
 20
377.0635997899
 10
105.6542104311
 20
375.0380774982
 10
104.9314892121
 20
372.964707578
 10
104.4470561869
 20
370.8569383271
 10
104.2040517755
 20
368.7284266598
 10
104.2040517755
 20
366.5930008538
 10
104.4470561869
 20
364.4645040877
 10
104.9314892121
 20
362.3567348368
 10
105.6542104311
 20
360.2833723672
 10
106.6105297036
 20
358.2578426249
 10
107.7942481466
 20
356.2932884343
 10
109.1976879366
 20
354.4024651892
 10
110.8117444642
 20
352.5976216443
 10
112.625953389
 20
350.8904850133
 10
114.6285483815
 20
349.2920970566
 10
116.8065412171
 20
347.8128289826
 10
119.1458055951
 20
346.4622920401
 10
121.6311721332
 20
345.2492332108
 10
124.2465215005
 20
344.1815203078
 10
126.9748924501
 20
343.266082371
 10
129.7985898532
 20
342.5088500626
 10
132.6993029766
 20
341.9147407658
 10
135.6582167759
 20
341.4875989802
 10
138.656143678
 20
341.2301963217
 10
141.6736399956
 20
341.1442166217
 10
144.6911363132
 20
341.2301963217
 10
147.6890632152
 20
341.4875989802
 10
150.6479770146
 20
341.9147407658
 10
153.548690138
 20
342.5088500626
 10
156.3723875411
 20
343.266082371
 10
159.1007584907
 20
344.1815203078
 10
161.716107858
 20
345.2492332108
 10
164.2014743961
 20
346.4622920401
 10
166.5407387741
 20
347.8128289826
 10
168.7187316097
 20
349.2920970566
 10
170.7213266022
 20
350.8904850133
 10
172.535535527
 20
352.5976216443
 10
174.1495920546
 20
354.4024651892
 10
175.5530318446
 20
356.2932884343
 10
176.7367502876
 20
358.2578426249
 10
177.6930695601
 20
360.2833723672
 10
178.4157907791
 20
362.3567348368
 10
178.9002238043
 20
364.4645040877
 10
179.1432282157
 20
366.5930008538
 10
179.1432282157
 20
368.7284266598
 10
178.9002238043
 20
370.8569383271
 10
178.4157907791
 20
372.964707578
 10
177.6930695601
 20
375.0380774982
 10
176.7367502876
 20
377.0635997899
 10
175.5530318446
 20
379.0281465299
 10
174.1495920546
 20
380.918969775
 10
172.535535527
 20
382.7238133199
 10
170.7213266022
 20
384.4309574015
 10
168.7187316097
 20
386.0293453581
 10
166.5407387741
 20
387.5086059816
 10
164.2014743961
 20
388.8591503747
 10
161.716107858
 20
390.072209204
 10
159.1007584907
 20
391.139922107
 10
156.3723875411
 20
392.0553600438
 10
153.548690138
 20
392.8125923522
 10
150.6479770146
 20
393.406701649
 10
147.6890632152
 20
393.8338434346
 10
144.6911363132
 20
394.0912386425
 10
141.6736399956
 20
394.1772257931
  0
LWPOLYLINE
  5
93
330
1F
100
AcDbEntity
  8
0
  6
Continuous
 62
     7
370
    25
100
AcDbPolyline
 90
       74
 70
   128
 43
0.0
 10
141.6736399956
 20
390.995246733
 10
138.836801631
 20
390.9088647015
 10
136.0209664531
 20
390.6503593571
 10
133.2469811864
 20
390.2216529496
 10
130.5353842877
 20
389.6259119756
 10
127.9062513463
 20
388.867547179
 10
125.3790470041
 20
387.9521762974
 10
122.9724815316
 20
386.8865719087
 10
120.7043739237
 20
385.6786241777
 10
118.5915159263
 20
384.3372812517
 10
116.6495481707
 20
382.8724747546
 10
114.8928502776
 20
381.2950378306
 10
113.3344290979
 20
379.6166604407
 10
111.9858218558
 20
377.8497701533
 10
110.8570123292
 20
376.0074352868
 10
109.956358207
 20
374.1033127554
 10
109.2905258961
 20
372.151491607
 10
108.8644495435
 20
370.1664185174
 10
108.6812807448
 20
368.1627934821
 10
108.7423755057
 20
366.1554431565
 10
109.0472793408
 20
364.1592538006
 10
109.5937384494
 20
362.1889775641
 10
110.3777071662
 20
360.2592175849
 10
111.3933796264
 20
358.3842491753
 10
112.6332381941
 20
356.5779602177
 10
114.0881000288
 20
354.8537319548
 10
115.7471953161
 20
353.2243197806
 10
117.5982399113
 20
351.7017787345
 10
119.6275321968
 20
350.2974038966
 10
121.820046214
 20
349.0215813763
 10
124.1595490105
 20
347.8837585099
 10
126.6287189178
 20
346.8923544533
 10
129.2092768676
 20
346.054700578
 10
131.8821167774
 20
345.3770255692
 10
134.6274499051
 20
344.864321316
 10
137.4249501355
 20
344.5204025157
 10
140.2539062515
 20
344.3478023656
 10
143.0933737397
 20
344.3478023656
 10
145.9223298557
 20
344.5204025157
 10
148.7198300861
 20
344.864321316
 10
151.4651632138
 20
345.3770255692
 10
154.1380031235
 20
346.054700578
 10
156.7185610734
 20
346.8923544533
 10
159.1877309807
 20
347.8837585099
 10
161.5272337772
 20
349.0215813763
 10
163.7197477944
 20
350.2974038966
 10
165.7490400799
 20
351.7017787345
 10
167.6000846751
 20
353.2243197806
 10
169.2591799624
 20
354.8537319548
 10
170.7140417971
 20
356.5779602177
 10
171.9539003648
 20
358.3842491753
 10
172.969572825
 20
360.2592175849
 10
173.7535415418
 20
362.1889775641
 10
174.3000006504
 20
364.1592538006
 10
174.6049044855
 20
366.1554431565
 10
174.6659992464
 20
368.1627934821
 10
174.4828304477
 20
370.1664185174
 10
174.0567540951
 20
372.151491607
 10
173.3909217842
 20
374.1033127554
 10
172.490267662
 20
376.0074352868
 10
171.3614581354
 20
377.8497701533
 10
170.0128508933
 20
379.6166604407
 10
168.4544297136
 20
381.2950378306
 10
166.6977318205
 20
382.8724747546
 10
164.7557640649
 20
384.3372812517
 10
162.6429060675
 20
385.6786241777
 10
160.3747984596
 20
386.8865719087
 10
157.9682329871
 20
387.9521762974
 10
155.4410286449
 20
388.867547179
 10
152.8118957035
 20
389.6259119756
 10
150.1002988048
 20
390.2216529496
 10
147.3263135381
 20
390.6503593571
 10
144.5104783602
 20
390.9088647015
 10
141.6736399956
 20
390.995246733
  0
INSERT
  5
9F
330
1F
100
AcDbEntity
  8
FORMAT
100
AcDbBlockReference
  2
SW_CENTERMARKSYMBOL_0
 10
141.6736399956
 20
498.4754746802
 30
0.0
  0
LINE
  5
A0
330
1F
100
AcDbEntity
  8
0
  6
Continuous
 62
     7
370
    25
100
AcDbLine
 10
104.1736385055
 20
-174.3652281365
 30
0.0
 11
104.1736385055
 21
-305.1799890599
 31
0.0
  0
LINE
  5
A1
330
1F
100
AcDbEntity
  8
0
  6
Continuous
 62
     7
370
    25
100
AcDbLine
 10
179.1736414857
 20
-305.1799890599
 30
0.0
 11
179.1736414857
 21
-174.3652281365
 31
0.0
  0
CIRCLE
  5
A2
330
1F
100
AcDbEntity
  8
0
  6
Continuous
 62
     7
370
    25
100
AcDbCircle
 10
141.6736399956
 20
-305.1799890599
 30
0.0
 40
33.0
  0
CIRCLE
  5
A3
330
1F
100
AcDbEntity
  8
0
  6
Continuous
 62
     7
370
    25
100
AcDbCircle
 10
141.6736399956
 20
-305.1799890599
 30
0.0
 40
37.5
  0
LWPOLYLINE
  5
A4
330
1F
100
AcDbEntity
  8
0
  6
Continuous
 62
     7
370
    25
100
AcDbPolyline
 90
       41
 70
   128
 43
0.0
 10
104.1736385055
 20
-174.3652281365
 10
104.2040517755
 20
-173.2975152335
 10
104.4470561869
 20
-171.1690184674
 10
104.9314892121
 20
-169.0612492165
 10
105.6542104311
 20
-166.9878867468
 10
106.6105297036
 20
-164.9623570046
 10
107.7942481466
 20
-162.9978028139
 10
109.1976879366
 20
-161.1069795689
 10
110.8117444642
 20
-159.3021360239
 10
112.625953389
 20
-157.5949993929
 10
114.6285483815
 20
-155.9966114363
 10
116.8065412171
 20
-154.5173433623
 10
119.1458055951
 20
-153.1668064198
 10
121.6311721332
 20
-151.9537475905
 10
124.2465215005
 20
-150.8860346875
 10
126.9748924501
 20
-149.9705967507
 10
129.7985898532
 20
-149.2133644423
 10
132.6993029766
 20
-148.6192551455
 10
135.6582167759
 20
-148.1921133599
 10
138.656143678
 20
-147.9347107014
 10
141.6736399956
 20
-147.8487310013
 10
144.6911363132
 20
-147.9347107014
 10
147.6890632152
 20
-148.1921133599
 10
150.6479770146
 20
-148.6192551455
 10
153.548690138
 20
-149.2133644423
 10
156.3723875411
 20
-149.9705967507
 10
159.1007584907
 20
-150.8860346875
 10
161.716107858
 20
-151.9537475905
 10
164.2014743961
 20
-153.1668064198
 10
166.5407387741
 20
-154.5173433623
 10
168.7187316097
 20
-155.9966114363
 10
170.7213266022
 20
-157.5949993929
 10
172.535535527
 20
-159.3021360239
 10
174.1495920546
 20
-161.1069795689
 10
175.5530318446
 20
-162.9978028139
 10
176.7367502876
 20
-164.9623570046
 10
177.6930695601
 20
-166.9878867468
 10
178.4157907791
 20
-169.0612492165
 10
178.9002238043
 20
-171.1690184674
 10
179.1432282157
 20
-173.2975152335
 10
179.1736414857
 20
-174.3652281365
  0
INSERT
  5
B0
330
1F
100
AcDbEntity
  8
FORMAT
100
AcDbBlockReference
  2
SW_CENTERMARKSYMBOL_1
 10
141.6736399956
 20
-305.1799890599
 30
0.0
  0
LINE
  5
B1
330
1F
100
AcDbEntity
  8
0
  6
Continuous
 62
     7
370
    25
100
AcDbLine
 10
461.1107853602
 20
245.1432649727
 30
0.0
 11
394.3125379633
 21
178.3450101252
 31
0.0
  0
LINE
  5
B2
330
1F
100
AcDbEntity
  8
0
  6
Continuous
 62
     7
370
    25
100
AcDbLine
 10
394.3125379633
 20
72.2789917822
 30
0.0
 11
514.1437945317
 21
192.1102558012
 31
0.0
  0
LINE
  5
B3
330
1F
100
AcDbEntity
  8
0
  6
Continuous
 62
     7
370
    25
100
AcDbLine
 10
394.3125379633
 20
178.3450101252
 30
0.0
 11
394.3125379633
 21
272.8120092983
 31
0.0
  0
LINE
  5
B4
330
1F
100
AcDbEntity
  8
0
  6
Continuous
 62
     7
370
    25
100
AcDbLine
 10
394.3125379633
 20
-11.188
 30
0.0
 11
394.3125379633
 21
72.2789917822
 31
0.0
  0
LINE
  5
B5
330
1F
100
AcDbEntity
  8
0
  6
Continuous
 62
     7
370
    25
100
AcDbLine
 10
319.312534983
 20
272.8120092983
 30
0.0
 11
319.312534983
 21
-11.188
 31
0.0
  0
LWPOLYLINE
  5
B6
330
1F
100
AcDbEntity
  8
0
  6
Continuous
 62
     7
370
    25
100
AcDbPolyline
 90
       21
 70
   128
 43
0.0
 10
394.3125379633
 20
72.2789917822
 10
394.1969347547
 20
72.3268766637
 10
393.8508478354
 20
72.4702258344
 10
393.2764080714
 20
72.7081675763
 10
392.4771544884
 20
73.0392341251
 10
391.4580193709
 20
73.4613691206
 10
390.225279833
 20
73.9719872112
 10
388.7865429174
 20
74.5679293509
 10
387.1506729524
 20
75.2455298538
 10
385.3277598869
 20
76.0006089444
 10
383.3290410589
 20
76.8285025592
 10
381.1668378662
 20
77.724114501
 10
378.8544831227
 20
78.6819238896
 10
376.4062335144
 20
79.6960224147
 10
373.8371801924
 20
80.760159039
 10
371.1631649535
 20
81.8677772517
 10
368.40067407
 20
83.0120374198
 10
365.5667377065
 20
84.185891294
 10
362.6788288716
 20
85.3821043606
 10
359.7547525901
 20
86.5932930942
 10
356.8125364732
 20
87.8119994636
  0
LWPOLYLINE
  5
B7
330
1F
100
AcDbEntity
  8
0
  6
Continuous
 62
     7
370
    25
100
AcDbPolyline
 90
       33
 70
   128
 43
0.0
 10
356.8125364732
 20
87.8119994636
 10
358.6817572254
 20
92.3246969218
 10
360.546330678
 20
96.8261738057
 10
362.4016216386
 20
101.3052467937
 10
364.2430168006
 20
105.7507698174
 10
366.0659387137
 20
110.1516862149
 10
367.8658555623
 20
114.4970659847
 10
369.6382918756
 20
118.7761132355
 10
371.3788415666
 20
122.9781661863
 10
373.083175848
 20
127.0927940245
 10
374.747059996
 20
131.1097745533
 10
376.3663561444
 20
135.0190941925
 10
377.9370391171
 20
138.8110522861
 10
379.4552010845
 20
142.4762313004
 10
380.9170720528
 20
146.0054968233
 10
382.3190142761
 20
149.3900869722
 10
383.6575427454
 20
152.6215825911
 10
384.9293307762
 20
155.6919519539
 10
386.1312174599
 20
158.593550765
 10
387.2602113883
 20
161.3191966648
 10
388.3135092806
 20
163.8620798225
 10
389.2884885322
 20
166.2158821459
 10
390.1827295672
 20
168.3747772808
 10
390.9940046619
 20
170.333371007
 10
391.7203021597
 20
172.0868055458
 10
392.3598115693
 20
173.6307148571
 10
392.9109459172
 20
174.9612693424
 10
393.3723342966
 20
176.075160944
 10
393.7428255926
 20
176.9696031446
 10
394.0215071093
 20
177.6424054737
 10
394.207678492
 20
178.0918542976
 10
394.3008815299
 20
178.3168767328
 10
394.3125379633
 20
178.3450101252
  0
LWPOLYLINE
  5
B8
330
1F
100
AcDbEntity
  8
0
  6
Continuous
 62
     7
370
    25
100
AcDbPolyline
 90
       41
 70
   128
 43
0.0
 10
461.1107853602
 20
245.1432649727
 10
461.1967725109
 20
245.0572852726
 10
461.4541677188
 20
244.7998826141
 10
461.8813095044
 20
244.3727259274
 10
462.4754188012
 20
243.7786166306
 10
463.2326511096
 20
243.0213992233
 10
464.1480890464
 20
242.1059612865
 10
465.2158019494
 20
241.0382334824
 10
466.4288607787
 20
239.8251895542
 10
467.7794051718
 20
238.4746377106
 10
469.2586657952
 20
236.9953845377
 10
470.8570537518
 20
235.3969965811
 10
472.5641978334
 20
233.6898450489
 10
474.3690413784
 20
231.8850015039
 10
476.2598646234
 20
229.9941782589
 10
478.2244113635
 20
228.0296389694
 10
480.2499336551
 20
226.0041092272
 10
482.3233035754
 20
223.9307318563
 10
484.4310728263
 20
221.8229626055
 10
486.5595844935
 20
219.6944658394
 10
488.6950102996
 20
217.5590400333
 10
490.8235070657
 20
215.4305432673
 10
492.9312763165
 20
213.3227740164
 10
495.0046387862
 20
211.2493966455
 10
497.0301685284
 20
209.2238669033
 10
498.9947227191
 20
207.2593276138
 10
500.8855459641
 20
205.3685043688
 10
502.6903895091
 20
203.5636608238
 10
504.3975261401
 20
201.8565092916
 10
505.9959140967
 20
200.258121335
 10
507.4751821707
 20
198.7788681622
 10
508.8257191132
 20
197.4283312197
 10
510.0387779425
 20
196.2152723904
 10
511.1064908456
 20
195.1475594873
 10
512.0219287823
 20
194.2321215506
 10
512.7791610907
 20
193.4748892422
 10
513.3732703875
 20
192.8807650442
 10
513.8004121732
 20
192.4536381598
 10
514.0578148316
 20
192.1962355013
 10
514.1437945317
 20
192.1102558012
 10
514.1437945317
 20
192.1102558012
  0
LINE
  5
B9
330
1F
100
AcDbEntity
  8
0
  6
Continuous
 62
     7
370
    25
100
AcDbLine
 10
356.8125364732
 20
-11.188
 30
0.0
 11
394.3125379633
 21
-11.188
 31
0.0
  0
LINE
  5
BA
330
1F
100
AcDbEntity
  8
0
  6
Continuous
 62
     7
370
    25
100
AcDbLine
 10
319.312534983
 20
-11.188
 30
0.0
 11
356.8125364732
 21
-11.188
 31
0.0
  0
LINE
  5
BB
330
1F
100
AcDbEntity
  8
0
  6
Continuous
 62
     7
370
    25
100
AcDbLine
 10
356.8125364732
 20
272.8120092983
 30
0.0
 11
394.3125379633
 21
272.8120092983
 31
0.0
  0
LINE
  5
BC
330
1F
100
AcDbEntity
  8
0
  6
Continuous
 62
     7
370
    25
100
AcDbLine
 10
319.312534983
 20
272.8120092983
 30
0.0
 11
356.8125364732
 21
272.8120092983
 31
0.0
  0
LINE
  5
BD
330
1F
100
AcDbEntity
  8
0
  6
Continuous
 62
     7
370
    25
100
AcDbLine
 10
-45.3591128686
 20
-11.188
 30
0.0
 11
-45.3591128686
 21
272.8120092983
 31
0.0
  0
LINE
  5
BE
330
1F
100
AcDbEntity
  8
0
  6
Continuous
 62
     7
370
    25
100
AcDbLine
 10
-120.3591158488
 20
72.2789917822
 30
0.0
 11
-120.3591158488
 21
-11.188
 31
0.0
  0
LINE
  5
BF
330
1F
100
AcDbEntity
  8
0
  6
Continuous
 62
     7
370
    25
100
AcDbLine
 10
-120.3591158488
 20
272.8120092983
 30
0.0
 11
-120.3591158488
 21
178.3450101252
 31
0.0
  0
LINE
  5
C0
330
1F
100
AcDbEntity
  8
0
  6
Continuous
 62
     7
370
    25
100
AcDbLine
 10
-240.1903724172
 20
192.1102558012
 30
0.0
 11
-120.3591158488
 21
72.2789917822
 31
0.0
  0
LINE
  5
C1
330
1F
100
AcDbEntity
  8
0
  6
Continuous
 62
     7
370
    25
100
AcDbLine
 10
-120.3591158488
 20
178.3450101252
 30
0.0
 11
-187.1573632457
 21
245.1432649727
 31
0.0
  0
LINE
  5
C2
330
1F
100
AcDbEntity
  8
0
  6
Continuous
 62
     7
370
    25
100
AcDbLine
 10
-120.3591158488
 20
-11.188
 30
0.0
 11
-45.3591128686
 21
-11.188
 31
0.0
  0
LINE
  5
C3
330
1F
100
AcDbEntity
  8
0
  6
Continuous
 62
     7
370
    25
100
AcDbLine
 10
-120.3591158488
 20
272.8120092983
 30
0.0
 11
-45.3591128686
 21
272.8120092983
 31
0.0
  0
LWPOLYLINE
  5
C4
330
1F
100
AcDbEntity
  8
0
  6
Continuous
 62
     7
370
    25
100
AcDbPolyline
 90
       33
 70
   128
 43
0.0
 10
-120.3591158488
 20
178.3450101252
 10
-120.3474594155
 20
178.3168767328
 10
-120.2542563775
 20
178.0918542976
 10
-120.0680849948
 20
177.6424054737
 10
-119.7894034782
 20
176.9696031446
 10
-119.4189121821
 20
176.075160944
 10
-118.9575238028
 20
174.9612693424
 10
-118.4063894549
 20
173.6307148571
 10
-117.7668800452
 20
172.0868055458
 10
-117.0405825474
 20
170.333371007
 10
-116.2293074527
 20
168.3747772808
 10
-115.3350664177
 20
166.2158821459
 10
-114.3600871661
 20
163.8620798225
 10
-113.3067892739
 20
161.3191966648
 10
-112.1777953454
 20
158.593550765
 10
-110.9759086617
 20
155.6919519539
 10
-109.7041206309
 20
152.6215825911
 10
-108.3655921617
 20
149.3900869722
 10
-106.9636499384
 20
146.0054968233
 10
-105.50177897
 20
142.4762313004
 10
-103.9836170026
 20
138.8110522861
 10
-102.41293403
 20
135.0190941925
 10
-100.7936378815
 20
131.1097745533
 10
-99.1297537335
 20
127.0927940245
 10
-97.4254194521
 20
122.9781661863
 10
-95.6848697611
 20
118.7761132355
 10
-93.9124334478
 20
114.4970659847
 10
-92.1125165993
 20
110.1516862149
 10
-90.2895946861
 20
105.7507698174
 10
-88.4481995241
 20
101.3052467937
 10
-86.5929085636
 20
96.8261738057
 10
-84.7283351109
 20
92.3246969218
 10
-82.8591143587
 20
87.8119994636
  0
LWPOLYLINE
  5
C5
330
1F
100
AcDbEntity
  8
0
  6
Continuous
 62
     7
370
    25
100
AcDbPolyline
 90
       21
 70
   128
 43
0.0
 10
-82.8591143587
 20
87.8119994636
 10
-85.8013304756
 20
86.5932930942
 10
-88.7254067571
 20
85.3821043606
 10
-91.6133155921
 20
84.185891294
 10
-94.4472519555
 20
83.0120374198
 10
-97.209742839
 20
81.8677772517
 10
-99.8837580779
 20
80.760159039
 10
-102.4528114
 20
79.6960224147
 10
-104.9010610082
 20
78.6819238896
 10
-107.2134157517
 20
77.724114501
 10
-109.3756189444
 20
76.8285025592
 10
-111.3743377724
 20
76.0006089444
 10
-113.1972508379
 20
75.2455298538
 10
-114.8331208029
 20
74.5679293509
 10
-116.2718577185
 20
73.9719872112
 10
-117.5045972564
 20
73.4613691206
 10
-118.523732374
 20
73.0392341251
 10
-119.3229859569
 20
72.7081675763
 10
-119.8974257209
 20
72.4702258344
 10
-120.2435126403
 20
72.3268766637
 10
-120.3591158488
 20
72.2789917822
  0
LWPOLYLINE
  5
C6
330
1F
100
AcDbEntity
  8
0
  6
Continuous
 62
     7
370
    25
100
AcDbPolyline
 90
       40
 70
   128
 43
0.0
 10
-240.1903724172
 20
192.1102558012
 10
-240.1043927171
 20
192.1962355013
 10
-239.8469900587
 20
192.4536381598
 10
-239.4198482731
 20
192.8807650442
 10
-238.8257389763
 20
193.4748892422
 10
-238.0685066679
 20
194.2321215506
 10
-237.1530687311
 20
195.1475594873
 10
-236.0853558281
 20
196.2152723904
 10
-234.8722969988
 20
197.4283312197
 10
-233.5217600563
 20
198.7788681622
 10
-232.0424919822
 20
200.258121335
 10
-230.4441040256
 20
201.8565092916
 10
-228.7369673946
 20
203.5636608238
 10
-226.9321238496
 20
205.3685043688
 10
-225.0413006046
 20
207.2593276138
 10
-223.076746414
 20
209.2238669033
 10
-221.0512166717
 20
211.2493966455
 10
-218.977854202
 20
213.3227740164
 10
-216.8700849512
 20
215.4305432673
 10
-214.7415881851
 20
217.5590400333
 10
-212.606162379
 20
219.6944658394
 10
-210.4776507118
 20
221.8229626055
 10
-208.3698814609
 20
223.9307318563
 10
-206.2965115407
 20
226.0041092272
 10
-204.270989249
 20
228.0296389694
 10
-202.306442509
 20
229.9941782589
 10
-200.4156192639
 20
231.8850015039
 10
-198.6107757189
 20
233.6898450489
 10
-196.9036316374
 20
235.3969965811
 10
-195.3052436807
 20
236.9953845377
 10
-193.8259830573
 20
238.4746377106
 10
-192.4754386642
 20
239.8251895542
 10
-191.2623798349
 20
241.0382334824
 10
-190.1946669319
 20
242.1059612865
 10
-189.2792289951
 20
243.0213992233
 10
-188.5219966867
 20
243.7786166306
 10
-187.9278873899
 20
244.3727259274
 10
-187.5007456043
 20
244.7998826141
 10
-187.2433503964
 20
245.0572852726
 10
-187.1573632457
 20
245.1432649727
  0
LINE
  5
C7
330
1F
100
AcDbEntity
  8
0
  6
Continuous
 62
     7
370
    25
100
AcDbLine
 10
273.5229309377
 20
-124.3774236511
 30
0.0
 11
360.9988862436
 21
-275.8902191951
 31
0.0
  0
LINE
  5
C8
330
1F
100
AcDbEntity
  8
0
  6
Continuous
 62
     7
370
    25
100
AcDbLine
 10
404.8387947326
 20
-201.823168719
 30
0.0
 11
338.4748385852
 21
-86.8774282597
 31
0.0
  0
LINE
  5
C9
330
1F
100
AcDbEntity
  8
0
  6
Continuous
 62
     7
370
    25
100
AcDbLine
 10
435.9988870674
 20
-346.6796653627
 30
0.0
 11
435.9988870674
 21
-114.7820671947
 31
0.0
  0
LINE
  5
CA
330
1F
100
AcDbEntity
  8
0
  6
Continuous
 62
     7
370
    25
100
AcDbLine
 10
360.9988862436
 20
-274.8105989037
 30
0.0
 11
360.9988862436
 21
-346.6796653627
 31
0.0
  0
LINE
  5
CB
330
1F
100
AcDbEntity
  8
0
  6
Continuous
 62
     7
370
    25
100
AcDbLine
 10
360.9988862436
 20
-114.7820671947
 30
0.0
 11
360.9988862436
 21
-125.8902277346
 31
0.0
  0
ELLIPSE
  5
CC
330
1F
100
AcDbEntity
  8
0
  6
Continuous
 62
     7
370
    25
100
AcDbEllipse
 10
398.4988866555
 20
-265.842124986
 30
0.0
 11
37.36480351170661
 21
10.01186895175644
 31
0.0
210
0.0
220
0.0
230
1.0
 40
0.3177652438
 41
0.7004580896382472
 42
3.056652579830585
  0
ELLIPSE
  5
CD
330
1F
100
AcDbEntity
  8
0
  6
Continuous
 62
     7
370
    25
100
AcDbEllipse
 10
398.4988866555
 20
-265.842124986
 30
0.0
 11
-24.17129947173891
 21
90.20851748421035
 31
0.0
210
0.0
220
0.0
230
1.0
 40
0.3178248929
 41
4.797329054143886
 42
5.412847070022954
  0
LWPOLYLINE
  5
CE
330
1F
100
AcDbEntity
  8
0
  6
Continuous
 62
     7
370
    25
100
AcDbPolyline
 90
       79
 70
   128
 43
0.0
 10
324.7488876015
 20
-94.79975793
 10
322.5543933958
 20
-96.066617796
 10
320.252533057
 20
-97.3954937247
 10
317.8582301913
 20
-98.7777641972
 10
315.387017559
 20
-100.2044437221
 10
312.854917877
 20
-101.6662820716
 10
310.2783559041
 20
-103.1538211167
 10
307.6740375973
 20
-104.6574159266
 10
305.0588559402
 20
-106.1672769676
 10
302.449767137
 20
-107.6736571745
 10
299.8636984155
 20
-109.1667530843
 10
297.3174189532
 20
-110.6369010356
 10
294.8274463635
 20
-112.0745642369
 10
292.409918938
 20
-113.4704126161
 10
290.0805232069
 20
-114.8153950607
 10
287.854363547
 20
-116.1007842892
 10
285.7458831566
 20
-117.3182589804
 10
283.7687481511
 20
-118.4599159442
 10
281.9357843436
 20
-119.5183431281
 10
280.2588692426
 20
-120.4866758963
 10
278.7488951744
 20
-121.3586487426
 10
277.4156507446
 20
-122.1285968208
 10
276.2677786912
 20
-122.7915289534
 10
275.312731104
 20
-123.3431534927
 10
274.5566851303
 20
-123.779878331
 10
274.0045508781
 20
-124.0988671793
 10
273.659918732
 20
-124.2980699948
 10
273.5250119383
 20
-124.3761895319
 10
273.6007234833
 20
-124.3327208919
 10
273.8865410194
 20
-124.1679340466
 10
274.3806140365
 20
-123.8828958965
 10
275.0797499109
 20
-123.4794725635
 10
275.9794073195
 20
-122.9602723693
 10
277.0737515582
 20
-122.3286625731
 10
278.3556887854
 20
-121.5887374429
 10
279.816900267
 20
-120.7452984946
 10
281.4479154743
 20
-119.8038244629
 10
283.2381486336
 20
-118.7703893726
 10
285.1759919102
 20
-117.6517304184
 10
287.2488871897
 20
-116.4550848547
 10
289.443376127
 20
-115.1882219473
 10
291.7452417343
 20
-113.85934906
 10
294.1395445999
 20
-112.4771029224
 10
296.6107572322
 20
-111.05041123
 10
299.1428569142
 20
-109.5885607131
 10
301.7194188871
 20
-108.101021668
 10
304.3237371939
 20
-106.5974390255
 10
306.938918851
 20
-105.0875658171
 10
309.5480023859
 20
-103.5811947362
 10
312.1340763757
 20
-102.0881018678
 10
314.680355838
 20
-100.6179539165
 10
317.1703231594
 20
-99.1802876738
 10
319.5878505849
 20
-97.7844392946
 10
321.917246316
 20
-96.4394568501
 10
324.1434112442
 20
-95.1540706629
 10
326.251896903
 20
-93.936599013
 10
328.2290266401
 20
-92.7949390079
 10
330.0619904476
 20
-91.736511824
 10
331.7388950119
 20
-90.7681729731
 10
333.24886908
 20
-89.8962001268
 10
334.5821240466
 20
-89.1262581313
 10
335.7299961
 20
-88.4633259987
 10
336.6850489556
 20
-87.9117045008
 10
337.4410896609
 20
-87.4749766211
 10
337.9932186447
 20
-87.1559847315
 10
338.3378507908
 20
-86.956781916
 10
338.4727575846
 20
-86.8786623788
 10
338.3970513079
 20
-86.9221340602
 10
338.1112337718
 20
-87.0869209055
 10
337.6171554864
 20
-87.3719560143
 10
336.9180248803
 20
-87.7753702212
 10
336.0183674717
 20
-88.2945825828
 10
334.924023233
 20
-88.9261802116
 10
333.6420860058
 20
-89.6661053419
 10
332.1808745242
 20
-90.5095564575
 10
330.5498593169
 20
-91.4510426566
 10
328.7596261576
 20
-92.4844534121
 10
326.8217776126
 20
-93.6031093249
 10
324.7488876015
 20
-94.79975793
  0
LWPOLYLINE
  5
CF
330
1F
100
AcDbEntity
  8
0
  6
Continuous
 62
     7
370
    25
100
AcDbPolyline
 90
       74
 70
   128
 43
0.0
 10
322.4988886305
 20
-96.0990891044
 10
320.4318596656
 20
-97.2923588219
 10
318.2579726346
 20
-98.5473513961
 10
315.9933276337
 20
-99.8547600167
 10
313.6546865962
 20
-101.2049138891
 10
311.2593639744
 20
-102.5877926728
 10
308.825095689
 20
-103.9931933954
 10
306.3699008347
 20
-105.4106947051
 10
303.9119585327
 20
-106.8297948877
 10
301.4694696362
 20
-108.2399917109
 10
299.0605164601
 20
-109.6308390746
 10
296.7029271216
 20
-110.9920557559
 10
294.4141649037
 20
-112.313552781
 10
292.2111754738
 20
-113.5855459751
 10
290.1102591256
 20
-114.7986236451
 10
288.1269825341
 20
-115.9438036119
 10
286.2760220222
 20
-117.0126054614
 10
284.5710819012
 20
-117.9971098625
 10
283.0247851521
 20
-118.8900338561
 10
281.6485746444
 20
-119.6847574796
 10
280.4526551837
 20
-120.3754241507
 10
279.4458644374
 20
-120.9568813656
 10
278.6356676659
 20
-121.4248662528
 10
278.0280536731
 20
-121.7758709856
 10
277.6275269033
 20
-122.0073298628
 10
277.4370560753
 20
-122.1175151365
 10
277.4580452059
 20
-122.1056145924
 10
277.6903322931
 20
-121.9717201526
 10
278.1322156579
 20
-121.7168126765
 10
278.7804144317
 20
-121.3427847912
 10
279.6301304591
 20
-120.852405159
 10
280.6750687131
 20
-120.2493188718
 10
281.9074880032
 20
-119.5379573489
 10
283.3182826342
 20
-118.7236128716
 10
284.8969896513
 20
-117.8123127455
 10
286.6319337186
 20
-116.8107964924
 10
288.5102610353
 20
-115.7264841172
 10
290.5180677512
 20
-114.5674019719
 10
292.6404885411
 20
-113.3421316259
 10
294.8618072403
 20
-112.0597459982
 10
297.1655875657
 20
-110.7297338892
 10
299.534759385
 20
-109.3619501825
 10
301.9518001462
 20
-107.9665232622
 10
304.3987954628
 20
-106.5537592076
 10
306.8576360195
 20
-105.1341497791
 10
309.3101203045
 20
-103.7181914355
 10
311.7380896118
 20
-102.3163682285
 10
314.1235748957
 20
-100.9390548454
 10
316.4489008218
 20
-99.5964565386
 10
318.6968569877
 20
-98.2985102615
 10
320.8508085594
 20
-97.0548207921
 10
322.8948003203
 20
-95.8746128238
 10
324.8136962837
 20
-94.7665895168
 10
326.5932969127
 20
-93.7389986529
 10
328.2204155121
 20
-92.7994060174
 10
329.6830270593
 20
-91.9548041356
 10
330.970284009
 20
-91.211420635
 10
332.0726611736
 20
-90.5747684245
 10
332.9819926011
 20
-90.0495574747
 10
333.6915519179
 20
-89.6396788392
 10
334.1960905244
 20
-89.3481704235
 10
334.4918613022
 20
-89.1771911214
 10
334.5766831519
 20
-89.1280017891
 10
334.449926505
 20
-89.2009675178
 10
334.1125225434
 20
-89.3955583826
 10
333.5669790046
 20
-89.7103159677
 10
332.8173327665
 20
-90.1429172346
 10
331.8691300909
 20
-90.6901554983
 10
330.7293917207
 20
-91.3479849009
 10
329.4065588795
 20
-92.1115515776
 10
327.9104228071
 20
-92.9751674093
 10
326.252060222
 20
-93.9324628625
 10
324.443754955
 20
-94.9763409691
 10
322.4988886305
 20
-96.0990891044
  0
LWPOLYLINE
  5
D0
330
1F
100
AcDbEntity
  8
0
  6
Continuous
 62
     7
370
    25
100
AcDbPolyline
 90
       79
 70
   128
 43
0.0
 10
371.9823813073
 20
-361.9873180676
 10
369.9346740382
 20
-360.7059258409
 10
368.0722183027
 20
-359.3335668099
 10
366.4070901606
 20
-357.8791435973
 10
364.9500887541
 20
-356.3520868818
 10
363.7106645262
 20
-354.7623017935
 10
362.6968550125
 20
-353.1200973928
 10
361.9152351214
 20
-351.4361245128
 10
361.3708743285
 20
-349.7213039068
 10
361.0673037496
 20
-347.9867570579
 10
361.0064911156
 20
-346.2437324258
 10
361.188830236
 20
-344.5035354955
 10
361.6131396821
 20
-342.7774519834
 10
362.276668055
 20
-341.0766763651
 10
363.1751111076
 20
-339.4122366018
 10
364.3026413796
 20
-337.7949298918
 10
365.6519490271
 20
-336.2352443555
 10
367.2142806764
 20
-334.7432940263
 10
368.9795052788
 20
-333.328756503
 10
370.9361747788
 20
-332.0008044712
 10
373.0715986947
 20
-330.7680504846
 10
375.3719283291
 20
-329.6384892256
 10
377.8222446857
 20
-328.6194467535
 10
380.4066584848
 20
-327.7175318902
 10
383.1084058174
 20
-326.9385931655
 10
385.9099667655
 20
-326.2876837944
 10
388.7931734031
 20
-325.7690236601
 10
391.7393224077
 20
-325.3859768839
 10
394.7293107202
 20
-325.1410282545
 10
397.7437468391
 20
-325.0357661208
 10
400.7630812119
 20
-325.0708725072
 10
403.7677300423
 20
-325.2461200722
 10
406.7382083152
 20
-325.5603728688
 10
409.6552509696
 20
-326.0115924275
 10
412.4999406561
 20
-326.5968522021
 10
415.2538275916
 20
-327.312356579
 10
417.8990540247
 20
-328.1534655875
 10
420.4184619076
 20
-329.1147236029
 10
422.7957150559
 20
-330.1898964133
 10
425.0153920036
 20
-331.3720126577
 10
427.0630992727
 20
-332.6534048845
 10
428.9255550083
 20
-334.0257639155
 10
430.5906831503
 20
-335.480187128
 10
432.0476845568
 20
-337.0072438436
 10
433.2871087848
 20
-338.5970289319
 10
434.3009182985
 20
-340.2392333326
 10
435.0825381896
 20
-341.9232062126
 10
435.6268989824
 20
-343.6380268186
 10
435.9304695613
 20
-345.3725736675
 10
435.9912821954
 20
-347.1155982996
 10
435.8089430749
 20
-348.8557952299
 10
435.3846336288
 20
-350.581878742
 10
434.721105256
 20
-352.2826543603
 10
433.8226622034
 20
-353.9470941236
 10
432.6951319313
 20
-355.5644008336
 10
431.3458242838
 20
-357.1240863699
 10
429.7834926345
 20
-358.616036699
 10
428.0182680322
 20
-360.0305742224
 10
426.0615985321
 20
-361.3585262541
 10
423.9261746163
 20
-362.5912802408
 10
421.6258449818
 20
-363.7208414998
 10
419.1755286252
 20
-364.7398839718
 10
416.5911148261
 20
-365.6417988352
 10
413.8893674935
 20
-366.4207375599
 10
411.0878065454
 20
-367.0716469309
 10
408.2045999078
 20
-367.5903070652
 10
405.2584509032
 20
-367.9733538415
 10
402.2684625907
 20
-368.2183024708
 10
399.2540264719
 20
-368.3235646045
 10
396.234692099
 20
-368.2884582181
 10
393.2300432687
 20
-368.1132106532
 10
390.2595649958
 20
-367.7989578565
 10
387.3425223413
 20
-367.3477382979
 10
384.4978326549
 20
-366.7624785232
 10
381.7439457194
 20
-366.0469741464
 10
379.0987192862
 20
-365.2058651379
 10
376.5793114033
 20
-364.2446071224
 10
374.202058255
 20
-363.169434312
 10
371.9823813073
 20
-361.9873180676
  0
LWPOLYLINE
  5
D1
330
1F
100
AcDbEntity
  8
0
  6
Continuous
 62
     7
370
    25
100
AcDbPolyline
 90
       41
 70
   128
 43
0.0
 10
360.9988862436
 20
-114.7820671947
 10
361.0064911156
 20
-114.3461342577
 10
361.188830236
 20
-112.6059373275
 10
361.6131396821
 20
-110.8798538154
 10
362.276668055
 20
-109.1790781971
 10
363.1751111076
 20
-107.5146384338
 10
364.3026413796
 20
-105.8973317238
 10
365.6519490271
 20
-104.3376461875
 10
367.2142806764
 20
-102.8456958583
 10
368.9795052788
 20
-101.431158335
 10
370.9361747788
 20
-100.1032063032
 10
373.0715986947
 20
-98.8704523165
 10
375.3719283291
 20
-97.7408910575
 10
377.8222446857
 20
-96.7218485855
 10
380.4066584848
 20
-95.8199337222
 10
383.1084058174
 20
-95.0409949975
 10
385.9099667655
 20
-94.3900856264
 10
388.7931734031
 20
-93.8714254921
 10
391.7393224077
 20
-93.4883787159
 10
394.7293107202
 20
-93.2434300865
 10
397.7437468391
 20
-93.1381679528
 10
400.7630812119
 20
-93.1732743392
 10
403.7677300423
 20
-93.3485219042
 10
406.7382083152
 20
-93.6627747008
 10
409.6552509696
 20
-94.1139942595
 10
412.4999406561
 20
-94.6992540341
 10
415.2538275916
 20
-95.414758411
 10
417.8990540247
 20
-96.2558674194
 10
420.4184619076
 20
-97.2171254349
 10
422.7957150559
 20
-98.2922982453
 10
425.0153920036
 20
-99.4744144897
 10
427.0630992727
 20
-100.7558067164
 10
428.9255550083
 20
-102.1281657475
 10
430.5906831503
 20
-103.58258896
 10
432.0476845568
 20
-105.1096456755
 10
433.2871087848
 20
-106.6994307639
 10
434.3009182985
 20
-108.3416351646
 10
435.0825381896
 20
-110.0256080446
 10
435.6268989824
 20
-111.7404286506
 10
435.9304695613
 20
-113.4749754995
 10
435.9988870674
 20
-114.7820671947
  0
LWPOLYLINE
  5
D2
330
1F
100
AcDbEntity
  8
0
  6
Continuous
 62
     7
370
    25
100
AcDbPolyline
 90
       74
 70
   128
 43
0.0
 10
375.1643630028
 20
-360.1503991348
 10
373.244795324
 20
-358.9425241154
 10
371.512201602
 20
-357.6438585004
 10
369.9794050154
 20
-356.2640190612
 10
368.65775953
 20
-354.8132190555
 10
367.5570458488
 20
-353.3022020778
 10
366.6854154358
 20
-351.7421534795
 10
366.049319393
 20
-350.1446243353
 10
365.6534696064
 20
-348.5214421034
 10
365.5007965989
 20
-346.8846239463
 10
365.5924291159
 20
-345.2462873917
 10
365.9276888566
 20
-343.6185636531
 10
366.5040957423
 20
-342.0135033481
 10
367.3173804289
 20
-340.4429901999
 10
368.3615225027
 20
-338.9186505569
 10
369.6287899924
 20
-337.4517712758
 10
371.1098009439
 20
-336.0532109523
 10
372.7935930605
 20
-334.7333262632
 10
374.667697831
 20
-333.5018881149
 10
376.718240093
 20
-332.3680135223
 10
378.9300370618
 20
-331.3400962749
 10
381.2867156333
 20
-330.4257483433
 10
383.7708278355
 20
-329.6317393134
 10
386.3639811787
 20
-328.9639469882
 10
389.0469790907
 20
-328.4273158543
 10
391.7999532835
 20
-328.0258186845
 10
394.6025237803
 20
-327.7624280253
 10
397.4339424778
 20
-327.6390926263
 10
400.2732452702
 20
-327.6567286965
 10
403.0994127338
 20
-327.8152031764
 10
405.8915176413
 20
-328.1133443832
 10
408.6288902561
 20
-328.548943151
 10
411.2912651883
 20
-329.118775261
 10
413.8589289078
 20
-329.8186227309
 10
416.3128731861
 20
-330.643303088
 10
418.6349281215
 20
-331.5867111879
 10
420.807901422
 20
-332.6418631239
 10
422.8157081379
 20
-333.8009452692
 10
424.643482944
 20
-335.0553760543
 10
426.2776907751
 20
-336.3958698353
 10
427.7062338392
 20
-337.8125017133
 10
428.9185365702
 20
-339.2947824273
 10
429.9056216892
 20
-340.8317387606
 10
430.660182645
 20
-342.4119903346
 10
431.1766343216
 20
-344.0238381885
 10
431.4511499168
 20
-345.6553499376
 10
431.4816997965
 20
-347.2944445505
 10
431.2680534702
 20
-348.9289877723
 10
430.81179803
 20
-350.5468772824
 10
430.1163091751
 20
-352.1361354556
 10
429.186736065
 20
-353.6849971817
 10
428.0299604899
 20
-355.1819927423
 10
426.6545474796
 20
-356.6160401921
 10
425.0706787907
 20
-357.9765217728
 10
423.2900809607
 20
-359.2533649845
 10
421.3259397381
 20
-360.4371178355
 10
419.1927951683
 20
-361.5190154906
 10
416.9064400953
 20
-362.4910479892
 10
414.4838000595
 20
-363.346017413
 10
411.942815295
 20
-364.0775953627
 10
409.3022954795
 20
-364.6803657516
 10
406.5817921407
 20
-365.1498650076
 10
403.8014448869
 20
-365.4826176199
 10
400.9818391608
 20
-365.6761589485
 10
398.1438495061
 20
-365.7290572746
 10
395.3084900783
 20
-365.6409210234
 10
392.4967513249
 20
-365.4124018058
 10
389.7294498377
 20
-365.0451913766
 10
387.0270735951
 20
-364.5420098497
 10
384.4096318133
 20
-363.906581367
 10
381.8965001888
 20
-363.1436116686
 10
379.5062891895
 20
-362.258747034
 10
377.2566906135
 20
-361.2585419682
 10
375.1643630028
 20
-360.1503991348
  0
ENDSEC
  0
SECTION
  2
OBJECTS
  0
DICTIONARY
  5
C
330
0
100
AcDbDictionary
281
     1
  3
ACAD_GROUP
350
D
  3
ACAD_LAYOUT
350
1A
  3
ACAD_MLINESTYLE
350
17
  3
ACAD_PLOTSETTINGS
350
19
  3
ACAD_PLOTSTYLENAME
350
E
  3
ACAD_SCALELIST
350
47
  0
DICTIONARY
  5
D
102
{ACAD_REACTORS
330
C
102
}
330
C
100
AcDbDictionary
281
     1
  0
DICTIONARY
  5
1A
102
{ACAD_REACTORS
330
C
102
}
330
C
100
AcDbDictionary
281
     1
  3
Layout1
350
1E
  3
Layout2
350
26
  3
Model
350
22
  0
DICTIONARY
  5
17
102
{ACAD_REACTORS
330
C
102
}
330
C
100
AcDbDictionary
281
     1
  3
Standard
350
18
  0
DICTIONARY
  5
19
102
{ACAD_REACTORS
330
C
102
}
330
C
100
AcDbDictionary
281
     1
  0
ACDBDICTIONARYWDFLT
  5
E
102
{ACAD_REACTORS
330
C
102
}
330
C
100
AcDbDictionary
281
     1
  3
Normal
350
F
100
AcDbDictionaryWithDefault
340
F
  0
DICTIONARY
  5
47
102
{ACAD_REACTORS
330
C
102
}
330
C
100
AcDbDictionary
281
     1
  3
A0
350
48
  3
A1
350
49
  3
A2
350
4A
  3
A3
350
4B
  3
A4
350
4C
  3
A5
350
4D
  3
A6
350
4E
  3
A7
350
4F
  3
A8
350
50
  3
A9
350
51
  3
B0
350
52
  3
B1
350
53
  3
B2
350
54
  3
B3
350
55
  3
B4
350
56
  3
B5
350
57
  3
B6
350
58
  3
B7
350
59
  3
B8
350
5A
  3
B9
350
5B
  3
C0
350
5C
  3
C1
350
5D
  3
C2
350
5E
  3
C3
350
5F
  3
C4
350
60
  3
C5
350
61
  3
C6
350
62
  3
C7
350
63
  3
C8
350
64
  3
C9
350
65
  3
D0
350
66
  3
D1
350
67
  3
D2
350
68
  0
LAYOUT
  5
1E
102
{ACAD_REACTORS
330
1A
102
}
330
1A
100
AcDbPlotSettings
  1

  2
none_device
  4

  6

 40
0.0
 41
0.0
 42
0.0
 43
0.0
 44
0.0
 45
0.0
 46
0.0
 47
0.0
 48
0.0
 49
0.0
140
0.0
141
0.0
142
1.0
143
1.0
 70
   688
 72
     1
 73
     0
 74
     5
  7

 75
    16
147
1.0
148
0.0
149
0.0
100
AcDbLayout
  1
Layout1
 70
     1
 71
     1
 10
0.0
 20
0.0
 11
420.0
 21
297.0
 12
0.0
 22
0.0
 32
0.0
 14
1.0000000000E+20
 24
1.0000000000E+20
 34
1.0000000000E+20
 15
-1.0000000000E+20
 25
-1.0000000000E+20
 35
-1.0000000000E+20
146
0.0
 13
0.0
 23
0.0
 33
0.0
 16
1.0
 26
0.0
 36
0.0
 17
0.0
 27
1.0
 37
0.0
 76
     0
330
1B
  0
LAYOUT
  5
26
102
{ACAD_REACTORS
330
1A
102
}
330
1A
100
AcDbPlotSettings
  1

  2
none_device
  4

  6

 40
0.0
 41
0.0
 42
0.0
 43
0.0
 44
0.0
 45
0.0
 46
0.0
 47
0.0
 48
0.0
 49
0.0
140
0.0
141
0.0
142
1.0
143
1.0
 70
   688
 72
     1
 73
     0
 74
     5
  7

 75
    16
147
1.0
148
0.0
149
0.0
100
AcDbLayout
  1
Layout2
 70
     1
 71
     2
 10
0.0
 20
0.0
 11
0.0
 21
0.0
 12
0.0
 22
0.0
 32
0.0
 14
0.0
 24
0.0
 34
0.0
 15
0.0
 25
0.0
 35
0.0
146
0.0
 13
0.0
 23
0.0
 33
0.0
 16
1.0
 26
0.0
 36
0.0
 17
0.0
 27
1.0
 37
0.0
 76
     0
330
23
  0
LAYOUT
  5
22
102
{ACAD_REACTORS
330
1A
102
}
330
1A
100
AcDbPlotSettings
  1

  2
none_device
  4
Letter_(8.50_x_11.00_Inches)
  6

 40
6.35
 41
6.35
 42
6.35000508
 43
6.35000508
 44
215.9
 45
279.4
 46
0.0
 47
0.0
 48
0.0
 49
0.0
140
0.0
141
0.0
142
1.0
143
1.0
 70
  1712
 72
     1
 73
     0
 74
     0
  7

 75
     0
147
1.0
148
0.0
149
0.0
100
AcDbLayout
  1
Model
 70
     1
 71
     0
 10
0.0
 20
0.0
 11
279.4
 21
215.9
 12
0.0
 22
0.0
 32
0.0
 14
0.0
 24
0.0
 34
0.0
 15
279.4
 25
215.9
 35
0.0
146
0.0
 13
0.0
 23
0.0
 33
0.0
 16
1.0
 26
0.0
 36
0.0
 17
0.0
 27
1.0
 37
0.0
 76
     0
330
1F
331
29
  0
MLINESTYLE
  5
18
102
{ACAD_REACTORS
330
17
102
}
330
17
100
AcDbMlineStyle
  2
Standard
 70
     0
  3

 62
   256
 51
90.0
 52
90.0
 71
     2
 49
0.5
 62
   256
  6
BYLAYER
 49
-0.5
 62
   256
  6
BYLAYER
  0
ACDBPLACEHOLDER
  5
F
102
{ACAD_REACTORS
330
E
102
}
330
E
  0
SCALE
  5
48
102
{ACAD_REACTORS
330
47
102
}
330
47
100
AcDbScale
 70
     0
300
1:1
140
1.0
141
1.0
290
     1
  0
SCALE
  5
49
102
{ACAD_REACTORS
330
47
102
}
330
47
100
AcDbScale
 70
     0
300
1:2
140
1.0
141
2.0
290
     0
  0
SCALE
  5
4A
102
{ACAD_REACTORS
330
47
102
}
330
47
100
AcDbScale
 70
     0
300
1:4
140
1.0
141
4.0
290
     0
  0
SCALE
  5
4B
102
{ACAD_REACTORS
330
47
102
}
330
47
100
AcDbScale
 70
     0
300
1:5
140
1.0
141
5.0
290
     0
  0
SCALE
  5
4C
102
{ACAD_REACTORS
330
47
102
}
330
47
100
AcDbScale
 70
     0
300
1:8
140
1.0
141
8.0
290
     0
  0
SCALE
  5
4D
102
{ACAD_REACTORS
330
47
102
}
330
47
100
AcDbScale
 70
     0
300
1:10
140
1.0
141
10.0
290
     0
  0
SCALE
  5
4E
102
{ACAD_REACTORS
330
47
102
}
330
47
100
AcDbScale
 70
     0
300
1:16
140
1.0
141
16.0
290
     0
  0
SCALE
  5
4F
102
{ACAD_REACTORS
330
47
102
}
330
47
100
AcDbScale
 70
     0
300
1:20
140
1.0
141
20.0
290
     0
  0
SCALE
  5
50
102
{ACAD_REACTORS
330
47
102
}
330
47
100
AcDbScale
 70
     0
300
1:30
140
1.0
141
30.0
290
     0
  0
SCALE
  5
51
102
{ACAD_REACTORS
330
47
102
}
330
47
100
AcDbScale
 70
     0
300
1:40
140
1.0
141
40.0
290
     0
  0
SCALE
  5
52
102
{ACAD_REACTORS
330
47
102
}
330
47
100
AcDbScale
 70
     0
300
1:50
140
1.0
141
50.0
290
     0
  0
SCALE
  5
53
102
{ACAD_REACTORS
330
47
102
}
330
47
100
AcDbScale
 70
     0
300
1:100
140
1.0
141
100.0
290
     0
  0
SCALE
  5
54
102
{ACAD_REACTORS
330
47
102
}
330
47
100
AcDbScale
 70
     0
300
2:1
140
2.0
141
1.0
290
     0
  0
SCALE
  5
55
102
{ACAD_REACTORS
330
47
102
}
330
47
100
AcDbScale
 70
     0
300
4:1
140
4.0
141
1.0
290
     0
  0
SCALE
  5
56
102
{ACAD_REACTORS
330
47
102
}
330
47
100
AcDbScale
 70
     0
300
8:1
140
8.0
141
1.0
290
     0
  0
SCALE
  5
57
102
{ACAD_REACTORS
330
47
102
}
330
47
100
AcDbScale
 70
     0
300
10:1
140
10.0
141
1.0
290
     0
  0
SCALE
  5
58
102
{ACAD_REACTORS
330
47
102
}
330
47
100
AcDbScale
 70
     0
300
100:1
140
100.0
141
1.0
290
     0
  0
SCALE
  5
59
102
{ACAD_REACTORS
330
47
102
}
330
47
100
AcDbScale
 70
     0
300
1/128" = 1'-0"
140
0.0078125
141
12.0
290
     0
  0
SCALE
  5
5A
102
{ACAD_REACTORS
330
47
102
}
330
47
100
AcDbScale
 70
     0
300
1/64" = 1'-0"
140
0.015625
141
12.0
290
     0
  0
SCALE
  5
5B
102
{ACAD_REACTORS
330
47
102
}
330
47
100
AcDbScale
 70
     0
300
1/32" = 1'-0"
140
0.03125
141
12.0
290
     0
  0
SCALE
  5
5C
102
{ACAD_REACTORS
330
47
102
}
330
47
100
AcDbScale
 70
     0
300
1/16" = 1'-0"
140
0.0625
141
12.0
290
     0
  0
SCALE
  5
5D
102
{ACAD_REACTORS
330
47
102
}
330
47
100
AcDbScale
 70
     0
300
3/32" = 1'-0"
140
0.09375
141
12.0
290
     0
  0
SCALE
  5
5E
102
{ACAD_REACTORS
330
47
102
}
330
47
100
AcDbScale
 70
     0
300
1/8" = 1'-0"
140
0.125
141
12.0
290
     0
  0
SCALE
  5
5F
102
{ACAD_REACTORS
330
47
102
}
330
47
100
AcDbScale
 70
     0
300
3/16" = 1'-0"
140
0.1875
141
12.0
290
     0
  0
SCALE
  5
60
102
{ACAD_REACTORS
330
47
102
}
330
47
100
AcDbScale
 70
     0
300
1/4" = 1'-0"
140
0.25
141
12.0
290
     0
  0
SCALE
  5
61
102
{ACAD_REACTORS
330
47
102
}
330
47
100
AcDbScale
 70
     0
300
3/8" = 1'-0"
140
0.375
141
12.0
290
     0
  0
SCALE
  5
62
102
{ACAD_REACTORS
330
47
102
}
330
47
100
AcDbScale
 70
     0
300
1/2" = 1'-0"
140
0.5
141
12.0
290
     0
  0
SCALE
  5
63
102
{ACAD_REACTORS
330
47
102
}
330
47
100
AcDbScale
 70
     0
300
3/4" = 1'-0"
140
0.75
141
12.0
290
     0
  0
SCALE
  5
64
102
{ACAD_REACTORS
330
47
102
}
330
47
100
AcDbScale
 70
     0
300
1" = 1'-0"
140
1.0
141
12.0
290
     0
  0
SCALE
  5
65
102
{ACAD_REACTORS
330
47
102
}
330
47
100
AcDbScale
 70
     0
300
1-1/2" = 1'-0"
140
1.5
141
12.0
290
     0
  0
SCALE
  5
66
102
{ACAD_REACTORS
330
47
102
}
330
47
100
AcDbScale
 70
     0
300
3" = 1'-0"
140
3.0
141
12.0
290
     0
  0
SCALE
  5
67
102
{ACAD_REACTORS
330
47
102
}
330
47
100
AcDbScale
 70
     0
300
6" = 1'-0"
140
6.0
141
12.0
290
     0
  0
SCALE
  5
68
102
{ACAD_REACTORS
330
47
102
}
330
47
100
AcDbScale
 70
     0
300
1'-0" = 1'-0"
140
12.0
141
12.0
290
     0
  0
ENDSEC
  0
EOF
